  0
SECTION
  2
HEADER
  9
$ACADVER
  1
AC1015
  9
$ACADMAINTVER
 70
     6
  9
$DWGCODEPAGE
  3
ANSI_1254
  9
$INSBASE
 10
0.0
 20
0.0
 30
0.0
  9
$EXTMIN
 10
0.0
 20
0.0
 30
0.0
  9
$EXTMAX
 10
279.4
 20
215.9
 30
0.0
  9
$LIMMIN
 10
0.0
 20
0.0
  9
$LIMMAX
 10
279.4
 20
215.9
  9
$ORTHOMODE
 70
     0
  9
$REGENMODE
 70
     1
  9
$FILLMODE
 70
     1
  9
$QTEXTMODE
 70
     0
  9
$MIRRTEXT
 70
     1
  9
$LTSCALE
 40
1.0
  9
$ATTMODE
 70
     1
  9
$TEXTSIZE
 40
3.5
  9
$TRACEWID
 40
1.0
  9
$TEXTSTYLE
  7
Standard
  9
$CLAYER
  8
0
  9
$CELTYPE
  6
ByLayer
  9
$CECOLOR
 62
   256
  9
$CELTSCALE
 40
1.0
  9
$DISPSILH
 70
     0
  9
$DIMSCALE
 40
1.0
  9
$DIMASZ
 40
3.5
  9
$DIMEXO
 40
1.0
  9
$DIMDLI
 40
3.75
  9
$DIMRND
 40
0.0
  9
$DIMDLE
 40
0.0
  9
$DIMEXE
 40
1.0
  9
$DIMTP
 40
0.0
  9
$DIMTM
 40
0.0
  9
$DIMTXT
 40
3.5
  9
$DIMCEN
 40
2.5
  9
$DIMTSZ
 40
0.0
  9
$DIMTOL
 70
     0
  9
$DIMLIM
 70
     0
  9
$DIMTIH
 70
     1
  9
$DIMTOH
 70
     1
  9
$DIMSE1
 70
     0
  9
$DIMSE2
 70
     0
  9
$DIMTAD
 70
     1
  9
$DIMZIN
 70
     0
  9
$DIMBLK
  1

  9
$DIMASO
 70
     1
  9
$DIMSHO
 70
     1
  9
$DIMPOST
  1

  9
$DIMAPOST
  1

  9
$DIMALT
 70
     0
  9
$DIMALTD
 70
     3
  9
$DIMALTF
 40
0.0393700787
  9
$DIMLFAC
 40
1.0
  9
$DIMTOFL
 70
     1
  9
$DIMTVP
 40
0.0
  9
$DIMTIX
 70
     0
  9
$DIMSOXD
 70
     0
  9
$DIMSAH
 70
     0
  9
$DIMBLK1
  1

  9
$DIMBLK2
  1

  9
$DIMSTYLE
  2
ISO-25
  9
$DIMCLRD
 70
     0
  9
$DIMCLRE
 70
     0
  9
$DIMCLRT
 70
     0
  9
$DIMTFAC
 40
1.0
  9
$DIMGAP
 40
1.524
  9
$DIMJUST
 70
     0
  9
$DIMSD1
 70
     0
  9
$DIMSD2
 70
     0
  9
$DIMTOLJ
 70
     0
  9
$DIMTZIN
 70
     0
  9
$DIMALTZ
 70
     0
  9
$DIMALTTZ
 70
     0
  9
$DIMUPT
 70
     0
  9
$DIMDEC
 70
     2
  9
$DIMTDEC
 70
     2
  9
$DIMALTU
 70
     2
  9
$DIMALTTD
 70
     3
  9
$DIMTXSTY
  7
Standard
  9
$DIMAUNIT
 70
     0
  9
$DIMADEC
 70
     2
  9
$DIMALTRND
 40
0.0
  9
$DIMAZIN
 70
     0
  9
$DIMDSEP
 70
    44
  9
$DIMATFIT
 70
     3
  9
$DIMFRAC
 70
     0
  9
$DIMLDRBLK
  1

  9
$DIMLUNIT
 70
     2
  9
$DIMLWD
 70
    -2
  9
$DIMLWE
 70
    -2
  9
$DIMTMOVE
 70
     0
  9
$LUNITS
 70
     2
  9
$LUPREC
 70
     2
  9
$SKETCHINC
 40
1.0
  9
$FILLETRAD
 40
10.0
  9
$AUNITS
 70
     0
  9
$AUPREC
 70
     2
  9
$MENU
  1
.
  9
$ELEVATION
 40
0.0
  9
$PELEVATION
 40
0.0
  9
$THICKNESS
 40
0.0
  9
$LIMCHECK
 70
     0
  9
$CHAMFERA
 40
0.0
  9
$CHAMFERB
 40
0.0
  9
$CHAMFERC
 40
0.0
  9
$CHAMFERD
 40
0.0
  9
$SKPOLY
 70
     0
  9
$TDCREATE
 40
2458985.705876945
  9
$TDUCREATE
 40
2458985.580876945
  9
$TDUPDATE
 40
2458985.705877245
  9
$TDUUPDATE
 40
2458985.580877245
  9
$TDINDWG
 40
0.0000000116
  9
$TDUSRTIMER
 40
0.0000000116
  9
$USRTIMER
 70
     1
  9
$ANGBASE
 50
0.0
  9
$ANGDIR
 70
     0
  9
$PDMODE
 70
     0
  9
$PDSIZE
 40
-1.0
  9
$PLINEWID
 40
0.0
  9
$SPLFRAME
 70
     0
  9
$SPLINETYPE
 70
     6
  9
$SPLINESEGS
 70
     8
  9
$HANDSEED
  5
F1
  9
$SURFTAB1
 70
     6
  9
$SURFTAB2
 70
     6
  9
$SURFTYPE
 70
     6
  9
$SURFU
 70
     6
  9
$SURFV
 70
     6
  9
$UCSBASE
  2

  9
$UCSNAME
  2

  9
$UCSORG
 10
0.0
 20
0.0
 30
0.0
  9
$UCSXDIR
 10
1.0
 20
0.0
 30
0.0
  9
$UCSYDIR
 10
0.0
 20
1.0
 30
0.0
  9
$UCSORTHOREF
  2

  9
$UCSORTHOVIEW
 70
     0
  9
$UCSORGTOP
 10
0.0
 20
0.0
 30
0.0
  9
$UCSORGBOTTOM
 10
0.0
 20
0.0
 30
0.0
  9
$UCSORGLEFT
 10
0.0
 20
0.0
 30
0.0
  9
$UCSORGRIGHT
 10
0.0
 20
0.0
 30
0.0
  9
$UCSORGFRONT
 10
0.0
 20
0.0
 30
0.0
  9
$UCSORGBACK
 10
0.0
 20
0.0
 30
0.0
  9
$PUCSBASE
  2

  9
$PUCSNAME
  2

  9
$PUCSORG
 10
0.0
 20
0.0
 30
0.0
  9
$PUCSXDIR
 10
1.0
 20
0.0
 30
0.0
  9
$PUCSYDIR
 10
0.0
 20
1.0
 30
0.0
  9
$PUCSORTHOREF
  2

  9
$PUCSORTHOVIEW
 70
     0
  9
$PUCSORGTOP
 10
0.0
 20
0.0
 30
0.0
  9
$PUCSORGBOTTOM
 10
0.0
 20
0.0
 30
0.0
  9
$PUCSORGLEFT
 10
0.0
 20
0.0
 30
0.0
  9
$PUCSORGRIGHT
 10
0.0
 20
0.0
 30
0.0
  9
$PUCSORGFRONT
 10
0.0
 20
0.0
 30
0.0
  9
$PUCSORGBACK
 10
0.0
 20
0.0
 30
0.0
  9
$USERI1
 70
     0
  9
$USERI2
 70
     0
  9
$USERI3
 70
     0
  9
$USERI4
 70
     0
  9
$USERI5
 70
     0
  9
$USERR1
 40
0.0
  9
$USERR2
 40
0.0
  9
$USERR3
 40
0.0
  9
$USERR4
 40
0.0
  9
$USERR5
 40
0.0
  9
$WORLDVIEW
 70
     1
  9
$SHADEDGE
 70
     3
  9
$SHADEDIF
 70
    70
  9
$TILEMODE
 70
     1
  9
$MAXACTVP
 70
    64
  9
$PINSBASE
 10
0.0
 20
0.0
 30
0.0
  9
$PLIMCHECK
 70
     0
  9
$PEXTMIN
 10
1.0000000000E+20
 20
1.0000000000E+20
 30
1.0000000000E+20
  9
$PEXTMAX
 10
-1.0000000000E+20
 20
-1.0000000000E+20
 30
-1.0000000000E+20
  9
$PLIMMIN
 10
0.0
 20
0.0
  9
$PLIMMAX
 10
420.0
 20
297.0
  9
$UNITMODE
 70
     0
  9
$VISRETAIN
 70
     1
  9
$PLINEGEN
 70
     0
  9
$PSLTSCALE
 70
     1
  9
$TREEDEPTH
 70
  3020
  9
$CMLSTYLE
  2
Standard
  9
$CMLJUST
 70
     0
  9
$CMLSCALE
 40
20.0
  9
$PROXYGRAPHICS
 70
     1
  9
$MEASUREMENT
 70
     1
  9
$CELWEIGHT
370
    -1
  9
$ENDCAPS
280
     0
  9
$JOINSTYLE
280
     0
  9
$LWDISPLAY
290
     1
  9
$INSUNITS
 70
     4
  9
$HYPERLINKBASE
  1

  9
$STYLESHEET
  1

  9
$XEDIT
290
     1
  9
$CEPSNTYPE
380
     0
  9
$PSTYLEMODE
290
     1
  9
$FINGERPRINTGUID
  2
{1aedc4c8-5925-43f9-8fde-335c97f3a27b}
  9
$VERSIONGUID
  2
{FAEB1C32-E019-11D5-929B-00C0DF256EC4}
  9
$EXTNAMES
290
     1
  9
$PSVPSCALE
 40
0.0
  9
$OLESTARTUP
290
     0
  0
ENDSEC
  0
SECTION
  2
CLASSES
  0
CLASS
  1
ACDBDICTIONARYWDFLT
  2
AcDbDictionaryWithDefault
  3
ObjectDBX Classes
 90
        0
280
     0
281
     0
  0
CLASS
  1
VISUALSTYLE
  2
AcDbVisualStyle
  3
ObjectDBX Classes
 90
     4095
280
     0
281
     0
  0
CLASS
  1
MATERIAL
  2
AcDbMaterial
  3
ObjectDBX Classes
 90
     1153
280
     0
281
     0
  0
CLASS
  1
SCALE
  2
AcDbScale
  3
ObjectDBX Classes
 90
     1153
280
     0
281
     0
  0
CLASS
  1
TABLESTYLE
  2
AcDbTableStyle
  3
ObjectDBX Classes
 90
     4095
280
     0
281
     0
  0
CLASS
  1
MLEADERSTYLE
  2
AcDbMLeaderStyle
  3
ACDB_MLEADERSTYLE_CLASS
 90
     4095
280
     0
281
     0
  0
CLASS
  1
SUN
  2
AcDbSun
  3
SCENEOE
 90
     1153
280
     0
281
     0
  0
CLASS
  1
ACDBPLACEHOLDER
  2
AcDbPlaceHolder
  3
ObjectDBX Classes
 90
        0
280
     0
281
     0
  0
CLASS
  1
LAYOUT
  2
AcDbLayout
  3
ObjectDBX Classes
 90
        0
280
     0
281
     0
  0
ENDSEC
  0
SECTION
  2
TABLES
  0
TABLE
  2
VPORT
  5
8
330
0
100
AcDbSymbolTable
 70
     1
  0
VPORT
  5
29
330
8
100
AcDbSymbolTableRecord
100
AcDbViewportTableRecord
  2
*Active
 70
     0
 10
0.0
 20
0.0
 11
1.0
 21
1.0
 12
139.7
 22
107.95
 13
0.0
 23
0.0
 14
10.0
 24
10.0
 15
10.0
 25
10.0
 16
0.0
 26
0.0
 36
1.0
 17
0.0
 27
0.0
 37
0.0
 40
215.9
 41
1.2941176471
 42
50.0
 43
0.0
 44
0.0
 50
0.0
 51
0.0
 71
     0
 72
  2000
 73
     1
 74
     3
 75
     0
 76
     0
 77
     0
 78
     0
281
     0
 65
     1
110
0.0
120
0.0
130
0.0
111
1.0
121
0.0
131
0.0
112
0.0
122
1.0
132
0.0
 79
     0
146
0.0
  0
ENDTAB
  0
TABLE
  2
LTYPE
  5
5
330
0
100
AcDbSymbolTable
 70
     6
  0
LTYPE
  5
14
330
5
100
AcDbSymbolTableRecord
100
AcDbLinetypeTableRecord
  2
ByBlock
 70
     0
  3

 72
    65
 73
     0
 40
0.0
  0
LTYPE
  5
15
330
5
100
AcDbSymbolTableRecord
100
AcDbLinetypeTableRecord
  2
ByLayer
 70
     0
  3

 72
    65
 73
     0
 40
0.0
  0
LTYPE
  5
16
330
5
100
AcDbSymbolTableRecord
100
AcDbLinetypeTableRecord
  2
Continuous
 70
     0
  3
Solid line
 72
    65
 73
     0
 40
0.0
  0
LTYPE
  5
6E
330
5
100
AcDbSymbolTableRecord
100
AcDbLinetypeTableRecord
  2
HIDDEN
 70
     0
  3
Hidden __ __ __ __ __ __ __ __ __ __ __ __ __ __
 72
    65
 73
     2
 40
1.905
 49
1.27
 74
     0
 49
-0.635
 74
     0
  0
LTYPE
  5
6F
330
5
100
AcDbSymbolTableRecord
100
AcDbLinetypeTableRecord
  2
PHANTOM
 70
     0
  3
Phantom ______  __  __  ______  __  __  ______
 72
    65
 73
     6
 40
12.7
 49
6.35
 74
     0
 49
-1.27
 74
     0
 49
1.27
 74
     0
 49
-1.27
 74
     0
 49
1.27
 74
     0
 49
-1.27
 74
     0
  0
LTYPE
  5
70
330
5
100
AcDbSymbolTableRecord
100
AcDbLinetypeTableRecord
  2
CENTER
 70
     0
  3
Center ____ _ ____ _ ____ _ ____ _ ____ _ ____
 72
    65
 73
     4
 40
10.16
 49
6.35
 74
     0
 49
-1.27
 74
     0
 49
1.27
 74
     0
 49
-1.27
 74
     0
  0
LTYPE
  5
71
330
5
100
AcDbSymbolTableRecord
100
AcDbLinetypeTableRecord
  2
CENTERX2
 70
     0
  3
Center (2x) ________  __  ________  __  _____
 72
    65
 73
     4
 40
20.32
 49
12.7
 74
     0
 49
-2.54
 74
     0
 49
2.54
 74
     0
 49
-2.54
 74
     0
  0
LTYPE
  5
72
330
5
100
AcDbSymbolTableRecord
100
AcDbLinetypeTableRecord
  2
DOT2
 70
     0
  3
Dot (.5x) ........................................
 72
    65
 73
     2
 40
0.635
 49
0.0
 74
     0
 49
-0.635
 74
     0
  0
ENDTAB
  0
TABLE
  2
LAYER
  5
2
330
0
100
AcDbSymbolTable
 70
    17
  0
LAYER
  5
10
330
2
100
AcDbSymbolTableRecord
100
AcDbLayerTableRecord
  2
0
 70
     0
 62
     7
  6
Continuous
370
    -3
390
F
  0
LAYER
  5
73
330
2
100
AcDbSymbolTableRecord
100
AcDbLayerTableRecord
  2
FORMAT
 70
     0
 62
     7
  6
Continuous
370
    -3
390
F
  0
LAYER
  5
74
330
2
100
AcDbSymbolTableRecord
100
AcDbLayerTableRecord
  2
YARDIMCI_GEOMETRI
 70
     0
 62
    -6
  6
Continuous
290
     0
370
    -3
390
F
  0
LAYER
  5
75
330
2
100
AcDbSymbolTableRecord
100
AcDbLayerTableRecord
  2
SAYFA_CERCEVESI
 70
     0
 62
     7
  6
Continuous
370
    25
390
F
  0
LAYER
  5
76
330
2
100
AcDbSymbolTableRecord
100
AcDbLayerTableRecord
  2
ANTET
 70
     0
 62
     7
  6
Continuous
370
    -3
390
F
  0
LAYER
  5
77
330
2
100
AcDbSymbolTableRecord
100
AcDbLayerTableRecord
  2
OLCU
 70
     0
 62
   150
  6
Continuous
370
    -3
390
F
  0
LAYER
  5
78
330
2
100
AcDbSymbolTableRecord
100
AcDbLayerTableRecord
  2
METIN
 70
     0
 62
    96
  6
Continuous
370
    -3
390
F
  0
LAYER
  5
79
330
2
100
AcDbSymbolTableRecord
100
AcDbLayerTableRecord
  2
BALON
 70
     0
 62
     5
  6
Continuous
370
    -3
390
F
  0
LAYER
  5
7A
330
2
100
AcDbSymbolTableRecord
100
AcDbLayerTableRecord
  2
VURGU
 70
     0
 62
     7
  6
Continuous
370
    -3
390
F
  0
LAYER
  5
7B
330
2
100
AcDbSymbolTableRecord
100
AcDbLayerTableRecord
  2
SILIK
 70
     0
 62
     7
  6
Continuous
370
    -3
390
F
  0
LAYER
  5
7C
330
2
100
AcDbSymbolTableRecord
100
AcDbLayerTableRecord
  2
MODEL
 70
     0
 62
     7
  6
Continuous
370
    -3
390
F
  0
LAYER
  5
7D
330
2
100
AcDbSymbolTableRecord
100
AcDbLayerTableRecord
  2
DETAYLANDıRMA
 70
     0
 62
   190
  6
Continuous
370
    -3
390
F
  0
LAYER
  5
7E
330
2
100
AcDbSymbolTableRecord
100
AcDbLayerTableRecord
  2
TOLERANS
 70
     0
 62
   230
  6
Continuous
370
    -3
390
F
  0
LAYER
  5
7F
330
2
100
AcDbSymbolTableRecord
100
AcDbLayerTableRecord
  2
MERKEZ_CIZGILERI
 70
     0
 62
    30
  6
Continuous
370
    -3
390
F
  0
LAYER
  5
80
330
2
100
AcDbSymbolTableRecord
100
AcDbLayerTableRecord
  2
KESIT-DETAY_CIZGILERI
 70
     0
 62
     7
  6
Continuous
370
    -3
390
F
  0
LAYER
  5
81
330
2
100
AcDbSymbolTableRecord
100
AcDbLayerTableRecord
  2
\U+041E\U+0421\U+0415\U+0412\U+042B\U+0415
 70
     0
 62
     7
  6
Continuous
370
    -3
390
F
  0
LAYER
  5
82
330
2
100
AcDbSymbolTableRecord
100
AcDbLayerTableRecord
  2
\U+0412\U+041E\U+0414\U+042F\U+041D\U+042B\U+0415_\U+0417\U+041D\U+0410\U+041A\U+0418
 70
     0
 62
    11
  6
Continuous
370
    -3
390
F
  0
ENDTAB
  0
TABLE
  2
STYLE
  5
3
330
0
100
AcDbSymbolTable
 70
     1
  0
STYLE
  5
11
330
3
100
AcDbSymbolTableRecord
100
AcDbTextStyleTableRecord
  2
Standard
 70
     0
 40
0.0
 41
1.0
 50
0.0
 71
     0
 42
3.5
  3
txt
  4

  0
ENDTAB
  0
TABLE
  2
VIEW
  5
6
330
0
100
AcDbSymbolTable
 70
     0
  0
ENDTAB
  0
TABLE
  2
UCS
  5
7
330
0
100
AcDbSymbolTable
 70
     0
  0
ENDTAB
  0
TABLE
  2
APPID
  5
9
330
0
100
AcDbSymbolTable
 70
     1
  0
APPID
  5
12
330
9
100
AcDbSymbolTableRecord
100
AcDbRegAppTableRecord
  2
ACAD
 70
     0
  0
ENDTAB
  0
TABLE
  2
DIMSTYLE
  5
A
330
0
100
AcDbSymbolTable
 70
     1
100
AcDbDimStyleTable
  0
DIMSTYLE
105
27
330
A
100
AcDbSymbolTableRecord
100
AcDbDimStyleTableRecord
  2
ISO-25
 70
     0
 41
2.5
 42
0.625
 43
3.75
 44
1.25
 73
     0
 74
     0
 77
     1
 78
     8
140
2.5
141
2.5
143
0.0393700787
147
0.625
171
     3
172
     1
178
     0
271
     2
272
     2
274
     3
278
    44
283
     0
284
     8
340
11
  0
ENDTAB
  0
TABLE
  2
BLOCK_RECORD
  5
1
330
0
100
AcDbSymbolTable
 70
     2
  0
BLOCK_RECORD
  5
1F
330
1
100
AcDbSymbolTableRecord
100
AcDbBlockTableRecord
  2
*Model_Space
340
22
  0
BLOCK_RECORD
  5
1B
330
1
100
AcDbSymbolTableRecord
100
AcDbBlockTableRecord
  2
*Paper_Space
340
1E
  0
BLOCK_RECORD
  5
23
330
1
100
AcDbSymbolTableRecord
100
AcDbBlockTableRecord
  2
*Paper_Space0
340
26
  0
BLOCK_RECORD
  5
88
330
1
100
AcDbSymbolTableRecord
100
AcDbBlockTableRecord
  2
SW_CENTERMARKSYMBOL_0
340
0
102
{BLKREFS
331
93
102
}
  0
ENDTAB
  0
ENDSEC
  0
SECTION
  2
BLOCKS
  0
BLOCK
  5
20
330
1F
100
AcDbEntity
  8
0
100
AcDbBlockBegin
  2
*Model_Space
 70
     0
 10
0.0
 20
0.0
 30
0.0
  3
*Model_Space
  1

  0
ENDBLK
  5
21
330
1F
100
AcDbEntity
  8
0
100
AcDbBlockEnd
  0
BLOCK
  5
1C
330
1B
100
AcDbEntity
 67
     1
  8
0
100
AcDbBlockBegin
  2
*Paper_Space
 70
     0
 10
0.0
 20
0.0
 30
0.0
  3
*Paper_Space
  1

  0
ENDBLK
  5
1D
330
1B
100
AcDbEntity
 67
     1
  8
0
100
AcDbBlockEnd
  0
BLOCK
  5
24
330
23
100
AcDbEntity
  8
0
100
AcDbBlockBegin
  2
*Paper_Space0
 70
     0
 10
0.0
 20
0.0
 30
0.0
  3
*Paper_Space0
  1

  0
ENDBLK
  5
25
330
23
100
AcDbEntity
  8
0
100
AcDbBlockEnd
  0
BLOCK
  5
89
330
88
100
AcDbEntity
  8
0
100
AcDbBlockBegin
  2
SW_CENTERMARKSYMBOL_0
 70
     0
 10
0.0
 20
0.0
 30
0.0
  3
SW_CENTERMARKSYMBOL_0
  1

  0
LINE
  5
8B
330
88
100
AcDbEntity
  8
FORMAT
 62
     0
100
AcDbLine
 10
0.0
 20
0.0
 30
0.0
 11
0.0
 21
2.5
 31
0.0
  0
LINE
  5
8C
330
88
100
AcDbEntity
  8
FORMAT
 62
     0
100
AcDbLine
 10
0.0
 20
0.0
 30
0.0
 11
-2.5
 21
0.0
 31
0.0
  0
LINE
  5
8D
330
88
100
AcDbEntity
  8
FORMAT
 62
     0
100
AcDbLine
 10
0.0
 20
0.0
 30
0.0
 11
0.0
 21
-2.5
 31
0.0
  0
LINE
  5
8E
330
88
100
AcDbEntity
  8
FORMAT
 62
     0
100
AcDbLine
 10
0.0
 20
0.0
 30
0.0
 11
2.5
 21
0.0
 31
0.0
  0
LINE
  5
8F
330
88
100
AcDbEntity
  8
FORMAT
 62
     0
100
AcDbLine
 10
0.0
 20
5.0
 30
0.0
 11
0.0
 21
102.5
 31
0.0
  0
LINE
  5
90
330
88
100
AcDbEntity
  8
FORMAT
 62
     0
100
AcDbLine
 10
-5.0
 20
0.0
 30
0.0
 11
-102.5
 21
0.0
 31
0.0
  0
LINE
  5
91
330
88
100
AcDbEntity
  8
FORMAT
 62
     0
100
AcDbLine
 10
0.0
 20
-5.0
 30
0.0
 11
0.0
 21
-102.5
 31
0.0
  0
LINE
  5
92
330
88
100
AcDbEntity
  8
FORMAT
 62
     0
100
AcDbLine
 10
5.0
 20
0.0
 30
0.0
 11
102.5
 21
0.0
 31
0.0
  0
ENDBLK
  5
8A
330
88
100
AcDbEntity
  8
0
100
AcDbBlockEnd
  0
ENDSEC
  0
SECTION
  2
ENTITIES
  0
CIRCLE
  5
83
330
1F
100
AcDbEntity
  8
0
  6
Continuous
 62
     7
370
    25
100
AcDbCircle
 10
135.7204942573
 20
109.882282191
 30
0.0
 40
100.0
  0
CIRCLE
  5
84
330
1F
100
AcDbEntity
  8
0
  6
Continuous
 62
     7
370
    25
100
AcDbCircle
 10
135.7204942573
 20
109.882282191
 30
0.0
 40
88.1
  0
CIRCLE
  5
85
330
1F
100
AcDbEntity
  8
0
  6
Continuous
 62
     7
370
    25
100
AcDbCircle
 10
135.7204942573
 20
109.882282191
 30
0.0
 40
87.70573108146965
  0
CIRCLE
  5
86
330
1F
100
AcDbEntity
  8
0
  6
Continuous
 62
     7
370
    25
100
AcDbCircle
 10
135.7204942573
 20
109.882282191
 30
0.0
 40
62.09426891853036
  0
CIRCLE
  5
87
330
1F
100
AcDbEntity
  8
0
  6
Continuous
 62
     7
370
    25
100
AcDbCircle
 10
135.7204942573
 20
109.882282191
 30
0.0
 40
61.70000000000002
  0
INSERT
  5
93
330
1F
100
AcDbEntity
  8
FORMAT
 62
     7
100
AcDbBlockReference
  2
SW_CENTERMARKSYMBOL_0
 10
135.7204942573
 20
109.882282191
 30
0.0
  0
ARC
  5
94
330
1F
100
AcDbEntity
  8
0
  6
Continuous
 62
     7
370
    25
100
AcDbCircle
 10
-204.039762872
 20
207.882282191
 30
0.0
 40
1.999999999999975
100
AcDbArc
 50
67.0942303416
 51
90.0
  0
ARC
  5
95
330
1F
100
AcDbEntity
  8
0
  6
Continuous
 62
     7
370
    25
100
AcDbCircle
 10
-204.039762872
 20
11.882282191
 30
0.0
 40
1.999999999999989
100
AcDbArc
 50
270.0
 51
292.9057696584
  0
LINE
  5
96
330
1F
100
AcDbEntity
  8
0
  6
Continuous
 62
     7
370
    25
100
AcDbLine
 10
-204.0397643886
 20
209.8822836811
 30
0.0
 11
-315.6345754705
 21
209.8822836811
 31
0.0
  0
LINE
  5
97
330
1F
100
AcDbEntity
  8
0
  6
Continuous
 62
     7
370
    25
100
AcDbLine
 10
-315.6345754705
 20
9.8822807009
 30
0.0
 11
-204.0397643886
 21
9.8822807009
 31
0.0
  0
LINE
  5
98
330
1F
100
AcDbEntity
  8
0
  6
Continuous
 62
     7
370
    25
100
AcDbLine
 10
-203.2613295905
 20
10.0399871404
 30
0.0
 11
-133.0078102492
 21
39.7245754535
 31
0.0
  0
LINE
  5
99
330
1F
100
AcDbEntity
  8
0
  6
Continuous
 62
     7
370
    25
100
AcDbLine
 10
-133.0078102492
 20
180.0399889285
 30
0.0
 11
-203.2613295905
 21
209.7245772416
 31
0.0
  0
ARC
  5
9A
330
1F
100
AcDbEntity
  8
0
  6
Continuous
 62
     7
370
    25
100
AcDbCircle
 10
-132.2293785133
 20
181.882282191
 30
0.0
 40
2.000000000000023
100
AcDbArc
 50
247.0942303416
 51
270.0
  0
ARC
  5
9B
330
1F
100
AcDbEntity
  8
0
  6
Continuous
 62
     7
370
    25
100
AcDbCircle
 10
-132.2293785133
 20
37.882282191
 30
0.0
 40
2.00000000000003
100
AcDbArc
 50
90.0
 51
112.9057696584
  0
LINE
  5
9C
330
1F
100
AcDbEntity
  8
0
  6
Continuous
 62
     7
370
    25
100
AcDbLine
 10
-40.6345695101
 20
179.882282489
 30
0.0
 11
-132.2293773137
 21
179.882282489
 31
0.0
  0
LINE
  5
9D
330
1F
100
AcDbEntity
  8
0
  6
Continuous
 62
     7
370
    25
100
AcDbLine
 10
-132.2293773137
 20
39.882281893
 30
0.0
 11
-40.6345695101
 21
39.882281893
 31
0.0
  0
LINE
  5
9E
330
1F
100
AcDbEntity
  8
0
  6
Continuous
 62
     7
370
    25
100
AcDbLine
 10
-315.6345754705
 20
209.8822836811
 30
0.0
 11
-315.6345754705
 21
9.8822807009
 31
0.0
  0
LINE
  5
9F
330
1F
100
AcDbEntity
  8
0
  6
Continuous
 62
     7
370
    25
100
AcDbLine
 10
-40.6345695101
 20
179.882282489
 30
0.0
 11
-40.6345695101
 21
39.882281893
 31
0.0
  0
LINE
  5
A0
330
1F
100
AcDbEntity
  8
0
  6
Continuous
 62
     1
370
    25
100
AcDbLine
 10
-203.2613295905
 20
209.7245772416
 30
0.0
 11
-203.2613295905
 21
10.0399871404
 31
0.0
  0
LINE
  5
A1
330
1F
100
AcDbEntity
  8
0
  6
Continuous
 62
     1
370
    25
100
AcDbLine
 10
-204.0397643886
 20
209.8822836811
 30
0.0
 11
-204.0397643886
 21
9.8822807009
 31
0.0
  0
LINE
  5
A2
330
1F
100
AcDbEntity
  8
0
  6
Continuous
 62
     1
370
    25
100
AcDbLine
 10
-133.0078102492
 20
180.0399889285
 30
0.0
 11
-133.0078102492
 21
39.7245754535
 31
0.0
  0
LINE
  5
A3
330
1F
100
AcDbEntity
  8
0
  6
Continuous
 62
     1
370
    25
100
AcDbLine
 10
-132.2293773137
 20
179.882282489
 30
0.0
 11
-132.2293773137
 21
39.882281893
 31
0.0
  0
ARC
  5
A4
330
1F
100
AcDbEntity
  8
0
  6
Continuous
 62
     7
370
    25
100
AcDbCircle
 10
233.7204942573
 20
416.1579774962
 30
0.0
 40
1.999999999999986
100
AcDbArc
 50
337.0942303416
 51
0.0
  0
ARC
  5
A5
330
1F
100
AcDbEntity
  8
0
  6
Continuous
 62
     7
370
    25
100
AcDbCircle
 10
37.7204942573
 20
416.1579774962
 30
0.0
 40
1.999999999999992
100
AcDbArc
 50
180.0
 51
202.9057696584
  0
LINE
  5
A6
330
1F
100
AcDbEntity
  8
0
  6
Continuous
 62
     7
370
    25
100
AcDbLine
 10
235.7204957474
 20
416.1579790129
 30
0.0
 11
235.7204957474
 21
527.7527900948
 31
0.0
  0
LINE
  5
A7
330
1F
100
AcDbEntity
  8
0
  6
Continuous
 62
     7
370
    25
100
AcDbLine
 10
35.7204927672
 20
527.7527900948
 30
0.0
 11
35.7204927672
 21
416.1579790129
 31
0.0
  0
LINE
  5
A8
330
1F
100
AcDbEntity
  8
0
  6
Continuous
 62
     7
370
    25
100
AcDbLine
 10
35.8781992067
 20
415.3795442148
 30
0.0
 11
65.5627875198
 21
345.1260248735
 31
0.0
  0
LINE
  5
A9
330
1F
100
AcDbEntity
  8
0
  6
Continuous
 62
     7
370
    25
100
AcDbLine
 10
205.8782009948
 20
345.1260248735
 30
0.0
 11
235.5627893079
 21
415.3795442148
 31
0.0
  0
ARC
  5
AA
330
1F
100
AcDbEntity
  8
0
  6
Continuous
 62
     7
370
    25
100
AcDbCircle
 10
207.7204942573
 20
344.3475931376
 30
0.0
 40
2.000000000000038
100
AcDbArc
 50
157.0942303416
 51
180.0
  0
ARC
  5
AB
330
1F
100
AcDbEntity
  8
0
  6
Continuous
 62
     7
370
    25
100
AcDbCircle
 10
63.7204942573
 20
344.3475931376
 30
0.0
 40
2.000000000000019
100
AcDbArc
 50
0.0
 51
22.9057696584
  0
LINE
  5
AC
330
1F
100
AcDbEntity
  8
0
  6
Continuous
 62
     7
370
    25
100
AcDbLine
 10
205.7204945553
 20
252.7527841343
 30
0.0
 11
205.7204945553
 21
344.347591938
 31
0.0
  0
LINE
  5
AD
330
1F
100
AcDbEntity
  8
0
  6
Continuous
 62
     7
370
    25
100
AcDbLine
 10
65.7204939593
 20
344.347591938
 30
0.0
 11
65.7204939593
 21
252.7527841343
 31
0.0
  0
LINE
  5
AE
330
1F
100
AcDbEntity
  8
0
  6
Continuous
 62
     7
370
    25
100
AcDbLine
 10
235.7204957474
 20
527.7527900948
 30
0.0
 11
35.7204927672
 21
527.7527900948
 31
0.0
  0
LINE
  5
AF
330
1F
100
AcDbEntity
  8
0
  6
Continuous
 62
     7
370
    25
100
AcDbLine
 10
205.7204945553
 20
252.7527841343
 30
0.0
 11
65.7204939593
 21
252.7527841343
 31
0.0
  0
LINE
  5
B0
330
1F
100
AcDbEntity
  8
0
  6
Continuous
 62
     1
370
    25
100
AcDbLine
 10
235.5627893079
 20
415.3795442148
 30
0.0
 11
35.8781992067
 21
415.3795442148
 31
0.0
  0
LINE
  5
B1
330
1F
100
AcDbEntity
  8
0
  6
Continuous
 62
     1
370
    25
100
AcDbLine
 10
235.7204957474
 20
416.1579790129
 30
0.0
 11
35.7204927672
 21
416.1579790129
 31
0.0
  0
LINE
  5
B2
330
1F
100
AcDbEntity
  8
0
  6
Continuous
 62
     1
370
    25
100
AcDbLine
 10
205.8782009948
 20
345.1260248735
 30
0.0
 11
65.5627875198
 21
345.1260248735
 31
0.0
  0
LINE
  5
B3
330
1F
100
AcDbEntity
  8
0
  6
Continuous
 62
     1
370
    25
100
AcDbLine
 10
205.7204945553
 20
344.347591938
 30
0.0
 11
65.7204939593
 21
344.347591938
 31
0.0
  0
ARC
  5
B4
330
1F
100
AcDbEntity
  8
0
  6
Continuous
 62
     7
370
    25
100
AcDbCircle
 10
476.2566125528
 20
11.882282191
 30
0.0
 40
1.999999999999996
100
AcDbArc
 50
247.0942303416
 51
270.0
  0
ARC
  5
B5
330
1F
100
AcDbEntity
  8
0
  6
Continuous
 62
     7
370
    25
100
AcDbCircle
 10
476.2566125528
 20
207.882282191
 30
0.0
 40
1.999999999999986
100
AcDbArc
 50
90.0
 51
112.9057696584
  0
LINE
  5
B6
330
1F
100
AcDbEntity
  8
0
  6
Continuous
 62
     7
370
    25
100
AcDbLine
 10
476.2566140695
 20
9.8822807009
 30
0.0
 11
587.8514251514
 21
9.8822807009
 31
0.0
  0
LINE
  5
B7
330
1F
100
AcDbEntity
  8
0
  6
Continuous
 62
     7
370
    25
100
AcDbLine
 10
587.8514251514
 20
209.8822836811
 30
0.0
 11
476.2566140695
 21
209.8822836811
 31
0.0
  0
LINE
  5
B8
330
1F
100
AcDbEntity
  8
0
  6
Continuous
 62
     7
370
    25
100
AcDbLine
 10
475.4781792714
 20
209.7245772416
 30
0.0
 11
405.22465993
 21
180.0399889285
 31
0.0
  0
LINE
  5
B9
330
1F
100
AcDbEntity
  8
0
  6
Continuous
 62
     7
370
    25
100
AcDbLine
 10
405.22465993
 20
39.7245754535
 30
0.0
 11
475.4781792714
 21
10.0399871404
 31
0.0
  0
ARC
  5
BA
330
1F
100
AcDbEntity
  8
0
  6
Continuous
 62
     7
370
    25
100
AcDbCircle
 10
404.4462281941
 20
37.882282191
 30
0.0
 40
2.000000000000019
100
AcDbArc
 50
67.0942303416
 51
90.0
  0
ARC
  5
BB
330
1F
100
AcDbEntity
  8
0
  6
Continuous
 62
     7
370
    25
100
AcDbCircle
 10
404.4462281941
 20
181.882282191
 30
0.0
 40
2.000000000000012
100
AcDbArc
 50
270.0
 51
292.9057696584
  0
LINE
  5
BC
330
1F
100
AcDbEntity
  8
0
  6
Continuous
 62
     7
370
    25
100
AcDbLine
 10
312.8514191909
 20
39.882281893
 30
0.0
 11
404.4462269946
 21
39.882281893
 31
0.0
  0
LINE
  5
BD
330
1F
100
AcDbEntity
  8
0
  6
Continuous
 62
     7
370
    25
100
AcDbLine
 10
404.4462269946
 20
179.882282489
 30
0.0
 11
312.8514191909
 21
179.882282489
 31
0.0
  0
LINE
  5
BE
330
1F
100
AcDbEntity
  8
0
  6
Continuous
 62
     7
370
    25
100
AcDbLine
 10
587.8514251514
 20
109.882282191
 30
0.0
 11
587.8514251514
 21
209.8822836811
 31
0.0
  0
LINE
  5
BF
330
1F
100
AcDbEntity
  8
0
  6
Continuous
 62
     7
370
    25
100
AcDbLine
 10
587.8514251514
 20
9.8822807009
 30
0.0
 11
587.8514251514
 21
109.882282191
 31
0.0
  0
LINE
  5
C0
330
1F
100
AcDbEntity
  8
0
  6
Continuous
 62
     7
370
    25
100
AcDbLine
 10
312.8514191909
 20
109.882282191
 30
0.0
 11
312.8514191909
 21
179.882282489
 31
0.0
  0
LINE
  5
C1
330
1F
100
AcDbEntity
  8
0
  6
Continuous
 62
     7
370
    25
100
AcDbLine
 10
312.8514191909
 20
39.882281893
 30
0.0
 11
312.8514191909
 21
109.882282191
 31
0.0
  0
LINE
  5
C2
330
1F
100
AcDbEntity
  8
0
  6
Continuous
 62
     1
370
    25
100
AcDbLine
 10
475.4781792714
 20
109.882282191
 30
0.0
 11
475.4781792714
 21
209.7245772416
 31
0.0
  0
LINE
  5
C3
330
1F
100
AcDbEntity
  8
0
  6
Continuous
 62
     1
370
    25
100
AcDbLine
 10
475.4781792714
 20
10.0399871404
 30
0.0
 11
475.4781792714
 21
109.882282191
 31
0.0
  0
LINE
  5
C4
330
1F
100
AcDbEntity
  8
0
  6
Continuous
 62
     1
370
    25
100
AcDbLine
 10
476.2566140695
 20
109.882282191
 30
0.0
 11
476.2566140695
 21
209.8822836811
 31
0.0
  0
LINE
  5
C5
330
1F
100
AcDbEntity
  8
0
  6
Continuous
 62
     1
370
    25
100
AcDbLine
 10
476.2566140695
 20
9.8822807009
 30
0.0
 11
476.2566140695
 21
109.882282191
 31
0.0
  0
LINE
  5
C6
330
1F
100
AcDbEntity
  8
0
  6
Continuous
 62
     1
370
    25
100
AcDbLine
 10
405.22465993
 20
109.882282191
 30
0.0
 11
405.22465993
 21
180.0399889285
 31
0.0
  0
LINE
  5
C7
330
1F
100
AcDbEntity
  8
0
  6
Continuous
 62
     1
370
    25
100
AcDbLine
 10
405.22465993
 20
39.7245754535
 30
0.0
 11
405.22465993
 21
109.882282191
 31
0.0
  0
LINE
  5
C8
330
1F
100
AcDbEntity
  8
0
  6
Continuous
 62
     1
370
    25
100
AcDbLine
 10
404.4462269946
 20
109.882282191
 30
0.0
 11
404.4462269946
 21
179.882282489
 31
0.0
  0
LINE
  5
C9
330
1F
100
AcDbEntity
  8
0
  6
Continuous
 62
     1
370
    25
100
AcDbLine
 10
404.4462269946
 20
39.882281893
 30
0.0
 11
404.4462269946
 21
109.882282191
 31
0.0
  0
ARC
  5
CA
330
1F
100
AcDbEntity
  8
0
  6
Continuous
 62
     7
370
    25
100
AcDbCircle
 10
37.7204942573
 20
-226.9525562834
 30
0.0
 40
1.999999999999986
100
AcDbArc
 50
157.0942303416
 51
180.0
  0
ARC
  5
CB
330
1F
100
AcDbEntity
  8
0
  6
Continuous
 62
     7
370
    25
100
AcDbCircle
 10
233.7204942573
 20
-226.9525562834
 30
0.0
 40
1.999999999999975
100
AcDbArc
 50
0.0
 51
22.9057696584
  0
LINE
  5
CC
330
1F
100
AcDbEntity
  8
0
  6
Continuous
 62
     7
370
    25
100
AcDbLine
 10
35.7204927672
 20
-226.9525578001
 30
0.0
 11
35.7204927672
 21
-338.547368882
 31
0.0
  0
LINE
  5
CD
330
1F
100
AcDbEntity
  8
0
  6
Continuous
 62
     7
370
    25
100
AcDbLine
 10
235.7204957474
 20
-338.547368882
 30
0.0
 11
235.7204957474
 21
-226.9525578001
 31
0.0
  0
LINE
  5
CE
330
1F
100
AcDbEntity
  8
0
  6
Continuous
 62
     7
370
    25
100
AcDbLine
 10
235.5627893079
 20
-226.174123002
 30
0.0
 11
205.8782009948
 21
-155.9206036606
 31
0.0
  0
LINE
  5
CF
330
1F
100
AcDbEntity
  8
0
  6
Continuous
 62
     7
370
    25
100
AcDbLine
 10
65.5627875198
 20
-155.9206036606
 30
0.0
 11
35.8781992067
 21
-226.174123002
 31
0.0
  0
ARC
  5
D0
330
1F
100
AcDbEntity
  8
0
  6
Continuous
 62
     7
370
    25
100
AcDbCircle
 10
63.7204942573
 20
-155.1421719247
 30
0.0
 40
2.000000000000008
100
AcDbArc
 50
337.0942303416
 51
0.0
  0
ARC
  5
D1
330
1F
100
AcDbEntity
  8
0
  6
Continuous
 62
     7
370
    25
100
AcDbCircle
 10
207.7204942573
 20
-155.1421719247
 30
0.0
 40
2.000000000000027
100
AcDbArc
 50
180.0
 51
202.9057696584
  0
LINE
  5
D2
330
1F
100
AcDbEntity
  8
0
  6
Continuous
 62
     7
370
    25
100
AcDbLine
 10
65.7204939593
 20
-63.5473629215
 30
0.0
 11
65.7204939593
 21
-155.1421707251
 31
0.0
  0
LINE
  5
D3
330
1F
100
AcDbEntity
  8
0
  6
Continuous
 62
     7
370
    25
100
AcDbLine
 10
205.7204945553
 20
-155.1421707251
 30
0.0
 11
205.7204945553
 21
-63.5473629215
 31
0.0
  0
LINE
  5
D4
330
1F
100
AcDbEntity
  8
0
  6
Continuous
 62
     7
370
    25
100
AcDbLine
 10
35.7204927672
 20
-338.547368882
 30
0.0
 11
235.7204957474
 21
-338.547368882
 31
0.0
  0
LINE
  5
D5
330
1F
100
AcDbEntity
  8
0
  6
Continuous
 62
     7
370
    25
100
AcDbLine
 10
65.7204939593
 20
-63.5473629215
 30
0.0
 11
205.7204945553
 21
-63.5473629215
 31
0.0
  0
LINE
  5
D6
330
1F
100
AcDbEntity
  8
0
  6
Continuous
 62
     1
370
    25
100
AcDbLine
 10
35.8781992067
 20
-226.174123002
 30
0.0
 11
235.5627893079
 21
-226.174123002
 31
0.0
  0
LINE
  5
D7
330
1F
100
AcDbEntity
  8
0
  6
Continuous
 62
     1
370
    25
100
AcDbLine
 10
35.7204927672
 20
-226.9525578001
 30
0.0
 11
235.7204957474
 21
-226.9525578001
 31
0.0
  0
LINE
  5
D8
330
1F
100
AcDbEntity
  8
0
  6
Continuous
 62
     1
370
    25
100
AcDbLine
 10
65.5627875198
 20
-155.9206036606
 30
0.0
 11
205.8782009948
 21
-155.9206036606
 31
0.0
  0
LINE
  5
D9
330
1F
100
AcDbEntity
  8
0
  6
Continuous
 62
     1
370
    25
100
AcDbLine
 10
65.7204939593
 20
-155.1421707251
 30
0.0
 11
205.7204945553
 21
-155.1421707251
 31
0.0
  0
LINE
  5
DA
330
1F
100
AcDbEntity
  8
0
  6
Continuous
 62
     7
370
    25
100
AcDbLine
 10
494.517162192
 20
-97.6661856335
 30
0.0
 11
415.6077145308
 21
-52.1127311312
 31
0.0
  0
LINE
  5
DB
330
1F
100
AcDbEntity
  8
0
  6
Continuous
 62
     7
370
    25
100
AcDbLine
 10
315.615844262
 20
-225.3225045802
 30
0.0
 11
394.5252919232
 21
-270.8759590825
 31
0.0
  0
SPLINE
  5
DC
330
1F
100
AcDbEntity
  8
0
  6
Continuous
 62
     7
370
    25
100
AcDbSpline
210
0.0
220
0.0
230
1.0
 70
     8
 71
     3
 72
    11
 73
     7
 74
     0
 42
0.000000001
 43
0.00000001
 40
0.0
 40
0.0
 40
0.0
 40
0.0
 40
0.1238464139420773
 40
0.5284703604402049
 40
0.9320483115174151
 40
1.0
 40
1.0
 40
1.0
 40
1.0
 10
504.1680147355996
 20
-105.8892894223137
 30
0.0
 10
503.9749570228489
 20
-105.6458105249289
 30
0.0
 10
503.1511521519964
 20
-104.606851248153
 30
0.0
 10
501.5366687099598
 20
-102.979731665564
 30
0.0
 10
499.9813994270017
 20
-101.5004586561077
 30
0.0
 10
499.069548645685
 20
-100.8153221135128
 30
0.0
 10
498.9381426956953
 20
-100.7165877371247
 30
0.0
  0
SPLINE
  5
DD
330
1F
100
AcDbEntity
  8
0
  6
Continuous
 62
     7
370
    25
100
AcDbSpline
210
0.0
220
0.0
230
1.0
 70
     8
 71
     3
 72
    10
 73
     6
 74
     0
 42
0.000000001
 43
0.00000001
 40
0.0
 40
0.0
 40
0.0
 40
0.0
 40
0.2860562703172799
 40
0.7815583701269528
 40
1.0
 40
1.0
 40
1.0
 40
1.0
 10
399.760104364001
 20
-273.3113894992052
 30
0.0
 10
400.2867876143272
 20
-273.5113969759074
 30
0.0
 10
401.7257831736329
 20
-274.0578542073156
 30
0.0
 10
403.6449281097713
 20
-274.5956085916425
 30
0.0
 10
405.0641934296941
 20
-274.8570127697425
 30
0.0
 10
405.4984386185187
 20
-274.936993239275
 30
0.0
  0
LINE
  5
DE
330
1F
100
AcDbEntity
  8
0
  6
Continuous
 62
     7
370
    25
100
AcDbLine
 10
412.352767421
 20
-275.7186756617
 30
0.0
 11
471.7573160871
 21
-277.3022040592
 31
0.0
  0
LINE
  5
DF
330
1F
100
AcDbEntity
  8
0
  6
Continuous
 62
     7
370
    25
100
AcDbLine
 10
538.7044423723
 20
-161.333814364
 30
0.0
 11
507.6260424837
 21
-110.6826431303
 31
0.0
  0
LINE
  5
E0
330
1F
100
AcDbEntity
  8
0
  6
Continuous
 62
     7
370
    25
100
AcDbLine
 10
595.0633030315
 20
-190.3503155656
 30
0.0
 11
535.3611804927
 21
-155.8850138386
 31
0.0
  0
LINE
  5
E1
330
1F
100
AcDbEntity
  8
0
  6
Continuous
 62
     7
370
    25
100
AcDbLine
 10
465.3668713045
 20
-277.1318540361
 30
0.0
 11
525.0689938433
 21
-311.5971557632
 31
0.0
  0
LWPOLYLINE
  5
E2
330
1F
100
AcDbEntity
  8
0
  6
Continuous
 62
     7
370
    25
100
AcDbPolyline
 90
      122
 70
   128
 43
0.0
 10
294.9011002241
 20
-179.5380240551
 10
294.996415322
 20
-175.2448412675
 10
295.2820919295
 20
-170.8531903139
 10
295.7573661351
 20
-166.3749069672
 10
296.4209577282
 20
-161.8220626952
 10
297.2710701994
 20
-157.206937284
 10
298.3054223505
 20
-152.5419640879
 10
299.5212166844
 20
-147.8397239425
 10
300.915181552
 20
-143.1128934571
 10
302.4835606155
 20
-138.3742100328
 10
304.2221181166
 20
-133.6364551323
 10
306.1261704867
 20
-128.9124010509
 10
308.1905863471
 20
-124.2147774558
 10
310.4098023136
 20
-119.5562470532
 10
312.7778282656
 20
-114.9493812535
 10
315.288289492
 20
-110.4065841292
 10
317.9344108872
 20
-105.9401076227
 10
320.7090643652
 20
-101.5619937554
 10
323.6047688605
 20
-97.2840442094
 10
326.6137140352
 20
-93.1177944741
 10
329.7277918893
 20
-89.0744773463
 10
332.9386072975
 20
-85.1649864298
 10
336.2375017166
 20
-81.3998624486
 10
339.6155847956
 20
-77.7892567481
 10
343.0637501812
 20
-74.3429039199
 10
346.5727005419
 20
-71.0700951876
 10
350.1329765446
 20
-67.9796495121
 10
353.7349818785
 20
-65.0799052292
 10
357.3690036707
 20
-62.3786717615
 10
361.025246401
 20
-59.8832343749
 10
364.6938541277
 20
-57.6003230969
 10
368.3649363353
 20
-55.5360917106
 10
372.0285962524
 20
-53.6960953243
 10
375.6749578517
 20
-52.085305203
 10
379.2941913684
 20
-50.7080636179
 10
382.8765391488
 20
-49.5680810926
 10
386.4123436375
 20
-48.6684263294
 10
389.8920730613
 20
-48.0115296337
 10
393.3063497465
 20
-47.5991543995
 10
396.6459632896
 20
-47.4324260081
 10
399.9019179725
 20
-47.5117862048
 10
403.0654288116
 20
-47.8370197147
 10
406.1279742409
 20
-48.4072481641
 10
409.0812934781
 20
-49.2209376846
 10
411.9174260372
 20
-50.2759004381
 10
414.6287275336
 20
-51.5692794085
 10
417.2078881231
 20
-53.0975985946
 10
419.6479535759
 20
-54.8567386768
 10
421.9423489835
 20
-56.8419446242
 10
424.0848840275
 20
-59.0478774065
 10
426.0697898582
 20
-61.4685835787
 10
427.8917085572
 20
-64.0975409084
 10
429.5457352853
 20
-66.9276614213
 10
431.0274024763
 20
-69.9513157343
 10
432.3327272532
 20
-73.1603452279
 10
433.4581798173
 20
-76.5461122333
 10
434.400730864
 20
-80.0994802651
 10
435.1578357772
 20
-83.8108748568
 10
435.7274609716
 20
-87.670285084
 10
436.108068087
 20
-91.6673099514
 10
436.2986245259
 20
-95.7911770251
 10
436.2986245259
 20
-100.0307644877
 10
436.108068087
 20
-104.3746433425
 10
435.7274609716
 20
-108.8111078317
 10
435.1578357772
 20
-113.3281933093
 10
434.400730864
 20
-117.9137226273
 10
433.4581798173
 20
-122.5553369336
 10
432.3327272532
 20
-127.2405238107
 10
431.0274024763
 20
-131.9566492122
 10
429.5457352853
 20
-136.6910000508
 10
427.8917085572
 20
-141.4308191748
 10
426.0697898582
 20
-146.1633190593
 10
424.0848840275
 20
-150.8757487229
 10
421.9423489835
 20
-155.5553998124
 10
419.6479535759
 20
-160.1896583107
 10
417.2078881231
 20
-164.7660379981
 10
414.6287275336
 20
-169.2721926159
 10
411.9174260372
 20
-173.6959736615
 10
409.0812934781
 20
-178.0254653674
 10
406.1279742409
 20
-182.2489846989
 10
403.0654288116
 20
-186.3551528364
 10
399.9019179725
 20
-190.3328982153
 10
396.6459632896
 20
-194.1715036711
 10
393.3063497465
 20
-197.8606110027
 10
389.8920730613
 20
-201.3902757205
 10
386.4123436375
 20
-204.7509891004
 10
382.8765391488
 20
-207.9336873045
 10
379.2941913684
 20
-210.9297954872
 10
375.6749578517
 20
-213.7312319749
 10
372.0285962524
 20
-216.3304413437
 10
368.3649363353
 20
-218.7204166603
 10
364.6938541277
 20
-220.894726571
 10
361.025246401
 20
-222.8474996151
 10
357.3690036707
 20
-224.5734702298
 10
353.7349818785
 20
-226.0679890143
 10
350.1329765446
 20
-227.3270315676
 10
346.5727005419
 20
-228.3471930681
 10
343.0637501812
 20
-229.1257321869
 10
339.6155847956
 20
-229.6605463713
 10
336.2375017166
 20
-229.9501923748
 10
332.9386072975
 20
-229.9938908167
 10
329.7277918893
 20
-229.791528462
 10
326.6137140352
 20
-229.3436490936
 10
323.6047688605
 20
-228.6514535096
 10
320.7090643652
 20
-227.7168132096
 10
317.9344108872
 20
-226.5422460587
 10
315.288289492
 20
-225.1309162843
 10
312.7778282656
 20
-223.4866359954
 10
310.4098023136
 20
-221.6138347636
 10
308.1905863471
 20
-219.5175565769
 10
306.1261704867
 20
-217.2034567995
 10
304.2221181166
 20
-214.677774791
 10
302.4835606155
 20
-211.9473156547
 10
300.915181552
 20
-209.0194441529
 10
299.5212166844
 20
-205.9020512458
 10
298.3054223505
 20
-202.6035373592
 10
297.2710701994
 20
-199.1328017367
 10
296.4209577282
 20
-195.4991952925
 10
295.7573661351
 20
-191.7125175656
 10
295.2820919295
 20
-187.7829741364
 10
294.996415322
 20
-183.7211583732
 10
294.9011002241
 20
-179.5380240551
  0
LWPOLYLINE
  5
E3
330
1F
100
AcDbEntity
  8
0
  6
Continuous
 62
     7
370
    25
100
AcDbPolyline
 90
      114
 70
   128
 43
0.0
 10
303.3156711141
 20
-174.6803956779
 10
303.4119503211
 20
-170.6269196293
 10
303.7004823777
 20
-166.4748151346
 10
304.1803769315
 20
-162.2369168228
 10
304.850158843
 20
-157.9263178251
 10
305.7077471114
 20
-153.5563465795
 10
306.7504970221
 20
-149.1405109402
 10
307.9751790727
 20
-144.6924593919
 10
309.3780158519
 20
-140.2259392285
 10
310.9546715028
 20
-135.7547539656
 10
312.7002622592
 20
-131.2927344438
 10
314.6094038613
 20
-126.8536567038
 10
316.6761904819
 20
-122.4512541511
 10
318.8942368734
 20
-118.0991263051
 10
321.2566783679
 20
-113.8107327146
 10
323.7562235606
 20
-109.599323001
 10
326.385141139
 20
-105.4779170845
 10
329.1353046639
 20
-101.4592519559
 10
331.9982162768
 20
-97.5557527815
 10
334.9650225056
 20
-93.7794842347
 10
338.0265590447
 20
-90.1421124774
 10
341.1733586584
 20
-86.6548823464
 10
344.3956972783
 20
-83.3285785745
 10
347.6836124434
 20
-80.173484727
 10
351.0269428116
 20
-77.1993421406
 10
354.4153545027
 20
-74.4153468837
 10
357.8383733663
 20
-71.8301067938
 10
361.2854195554
 20
-69.4516154343
 10
364.745838314
 20
-67.2872221546
 10
368.2089333975
 20
-65.3436127963
 10
371.6640009881
 20
-63.6267961983
 10
375.1003613048
 20
-62.1420859483
 10
378.5073926833
 20
-60.8940624583
 10
381.874564997
 20
-59.8865901733
 10
385.1914706083
 20
-59.1227814516
 10
388.4478559794
 20
-58.6049904848
 10
391.6336545988
 20
-58.3348247072
 10
394.7390238604
 20
-58.3131174232
 10
397.754359551
 20
-58.5399437777
 10
400.6703472171
 20
-59.0145850199
 10
403.4779700674
 20
-59.7355847777
 10
406.1685511193
 20
-60.7007186433
 10
408.7337716387
 20
-61.9069956962
 10
411.1657053839
 20
-63.3506874036
 10
413.4568344107
 20
-65.0273367473
 10
415.6000754145
 20
-66.9317582268
 10
417.58881134
 20
-69.0580621966
 10
419.4168834789
 20
-71.399683763
 10
421.078649422
 20
-73.9493797482
 10
422.5689725221
 20
-76.6992712744
 10
423.8832376992
 20
-79.6408604964
 10
425.0173935876
 20
-82.765048856
 10
425.967931462
 20
-86.0621842288
 10
426.7319115799
 20
-89.5220746154
 10
427.3069684494
 20
-93.1340269252
 10
427.6913319027
 20
-96.8868747351
 10
427.8838112915
 20
-100.769018593
 10
427.8838112915
 20
-104.7684594792
 10
427.6913319027
 20
-108.872835309
 10
427.3069684494
 20
-113.0694597161
 10
426.7319115799
 20
-117.3453585548
 10
425.967931462
 20
-121.6873216101
 10
425.0173935876
 20
-126.0819246526
 10
423.8832376992
 20
-130.515581528
 10
422.5689725221
 20
-134.9745890243
 10
421.078649422
 20
-139.445170976
 10
419.4168834789
 20
-143.9135010797
 10
417.58881134
 20
-148.3657698114
 10
415.6000754145
 20
-152.7882194059
 10
413.4568344107
 20
-157.1671742765
 10
411.1657053839
 20
-161.4891048882
 10
408.7337716387
 20
-165.7406475309
 10
406.1685511193
 20
-169.9086651531
 10
403.4779700674
 20
-173.9802777781
 10
400.6703472171
 20
-177.9428898791
 10
397.754359551
 20
-181.7842588178
 10
394.7390238604
 20
-185.4925176563
 10
391.6336545988
 20
-189.0561934047
 10
388.4478559794
 20
-192.4642724195
 10
385.1914706083
 20
-195.7062239737
 10
381.874564997
 20
-198.7720329552
 10
378.5073926833
 20
-201.6522150724
 10
375.1003613048
 20
-204.3378662815
 10
371.6640009881
 20
-206.8206932017
 10
368.2089333975
 20
-209.0930127326
 10
364.745838314
 20
-211.1478078493
 10
361.2854195554
 20
-212.9787290256
 10
357.8383733663
 20
-214.5801124821
 10
354.4153545027
 20
-215.9470058485
 10
351.0269428116
 20
-217.0751874572
 10
347.6836124434
 20
-217.9611719488
 10
344.3956972783
 20
-218.6022241476
 10
341.1733586584
 20
-218.9963533547
 10
338.0265590447
 20
-219.1423407224
 10
334.9650225056
 20
-219.0397438134
 10
331.9982162768
 20
-218.6888768266
 10
329.1353046639
 20
-218.0908250421
 10
326.385141139
 20
-217.2474311318
 10
323.7562235606
 20
-216.1613088434
 10
321.2566783679
 20
-214.8358125809
 10
318.8942368734
 20
-213.2750358811
 10
316.6761904819
 20
-211.4838098883
 10
314.6094038613
 20
-209.4676683748
 10
312.7002622592
 20
-207.2328386098
 10
310.9546715028
 20
-204.7862352761
 10
309.3780158519
 20
-202.13541788
 10
307.9751790727
 20
-199.288578586
 10
306.7504970221
 20
-196.2545148359
 10
305.7077471114
 20
-193.0426126169
 10
304.850158843
 20
-189.6627917101
 10
304.1803769315
 20
-186.1255064469
 10
303.7004823777
 20
-182.4416825932
 10
303.4119503211
 20
-178.6227101201
 10
303.3156711141
 20
-174.6803956779
  0
ARC
  5
E4
330
1F
100
AcDbEntity
  8
0
  6
Continuous
 62
     7
370
    25
100
AcDbCircle
 10
477.6936742344
 20
-126.7839577142
 30
0.0
 40
33.62847599887019
100
AcDbArc
 50
51.1699764205
 51
59.9818002921
  0
LWPOLYLINE
  5
E5
330
1F
100
AcDbEntity
  8
0
  6
Continuous
 62
     7
370
    25
100
AcDbPolyline
 90
        3
 70
   128
 43
0.0
 10
399.5480266907
 20
-273.2439582076
 10
396.8438585484
 20
-272.095700561
 10
394.5252919232
 20
-270.8759590825
  0
ARC
  5
E6
330
1F
100
AcDbEntity
  8
0
  6
Continuous
 62
     7
370
    25
100
AcDbCircle
 10
469.6218334028
 20
-134.195844898
 30
0.0
 40
44.67597210441201
100
AcDbArc
 50
20.3852979249
 51
39.1041186784
  0
ARC
  5
E7
330
1F
100
AcDbEntity
  8
0
  6
Continuous
 62
     7
370
    25
100
AcDbCircle
 10
413.7593301762
 20
-231.9105934152
 30
0.0
 40
43.82509780465953
100
AcDbArc
 50
259.4065606839
 51
280.5329003036
  0
ARC
  5
E8
330
1F
100
AcDbEntity
  8
0
  6
Continuous
 62
     7
370
    25
100
AcDbCircle
 10
511.1249685439
 20
-178.1878355349
 30
0.0
 40
32.32159349846177
100
AcDbArc
 50
23.0674895316
 51
31.4294117474
  0
ARC
  5
E9
330
1F
100
AcDbEntity
  8
0
  6
Continuous
 62
     7
370
    25
100
AcDbCircle
 10
472.5419947914
 20
-244.4062068035
 30
0.0
 40
32.90535452036121
100
AcDbArc
 50
268.6335646342
 51
278.345754242
  0
LWPOLYLINE
  5
EA
330
1F
100
AcDbEntity
  8
0
  6
Continuous
 62
     7
370
    25
100
AcDbPolyline
 90
       53
 70
   128
 43
0.0
 10
595.0633030315
 20
-190.3503155656
 10
595.3372549126
 20
-190.5109586387
 10
597.4279783089
 20
-191.9137358441
 10
599.37415382
 20
-193.5450094594
 10
601.168255599
 20
-195.3984593318
 10
602.803342587
 20
-197.4669197286
 10
604.2730874883
 20
-199.7423869446
 10
605.5718004783
 20
-202.2160603694
 10
606.6944660821
 20
-204.8783668255
 10
607.6367326375
 20
-207.7190077161
 10
608.3949597106
 20
-210.7269909688
 10
608.9662128269
 20
-213.8906812263
 10
609.3482792771
 20
-217.1978397712
 10
609.5396786529
 20
-220.6356731975
 10
609.5396786529
 20
-224.1908759975
 10
609.3482792771
 20
-227.8496944393
 10
608.9662128269
 20
-231.597977518
 10
608.3949597106
 20
-235.4212225846
 10
607.6367326375
 20
-239.3046361819
 10
606.6944660821
 20
-243.2331948803
 10
605.5718004783
 20
-247.1917034521
 10
604.2730874883
 20
-251.1648389782
 10
602.803342587
 20
-255.1372375371
 10
601.168255599
 20
-259.0935291866
 10
599.37415382
 20
-263.0184048815
 10
597.4279783089
 20
-266.896684913
 10
595.3372549126
 20
-270.7133599706
 10
593.1100758259
 20
-274.4536656661
 10
590.7550548109
 20
-278.10313272
 10
588.2813061236
 20
-281.6476417125
 10
585.6983970987
 20
-285.0734808744
 10
583.0163218076
 20
-288.3673917125
 10
580.2454575947
 20
-291.5166366868
 10
577.3965229304
 20
-294.5090265828
 10
574.4805418497
 20
-297.3329897106
 10
571.5087925859
 20
-299.9775924326
 10
568.4927746431
 20
-302.4326129252
 10
565.4441554545
 20
-304.6885537215
 10
562.3747300461
 20
-306.7366771639
 10
559.2963730455
 20
-308.5690635278
 10
556.2209943124
 20
-310.1786244679
 10
553.1604913589
 20
-311.5591365693
 10
550.1267052268
 20
-312.7052485675
 10
547.1313728256
 20
-313.612539282
 10
544.186082563
 20
-314.2774945605
 10
541.3022292347
 20
-314.6975394042
 10
538.4909699017
 20
-314.8710451879
 10
535.7631824021
 20
-314.7973444855
 10
533.1294153019
 20
-314.4767234605
 10
530.5998641873
 20
-313.9104233843
 10
528.1843097611
 20
-313.1006337871
 10
525.8921007213
 20
-312.0504871322
 10
525.0689938433
 20
-311.5971557632
  0
LWPOLYLINE
  5
EB
330
1F
100
AcDbEntity
  8
0
  6
Continuous
 62
     1
370
    25
100
AcDbPolyline
 90
       59
 70
   128
 43
0.0
 10
498.7791358072
 20
-100.5870550677
 10
500.8517966447
 20
-102.3953991265
 10
502.9943316888
 20
-104.6013319087
 10
504.9792375194
 20
-107.022038081
 10
506.8011562185
 20
-109.6509954107
 10
508.4551829465
 20
-112.4811159235
 10
509.9368501375
 20
-115.5047702366
 10
511.2421749144
 20
-118.7137997302
 10
512.3676274786
 20
-122.0995667356
 10
513.3101785252
 20
-125.6529347674
 10
514.0672834385
 20
-129.3643293591
 10
514.6369086328
 20
-133.2237395863
 10
515.0175157483
 20
-137.2207644537
 10
515.2080721871
 20
-141.3446315273
 10
515.2080721871
 20
-145.58421899
 10
515.0175157483
 20
-149.9280978448
 10
514.6369086328
 20
-154.364562334
 10
514.0672834385
 20
-158.8816478116
 10
513.3101785252
 20
-163.4671771296
 10
512.3676274786
 20
-168.1087914359
 10
511.2421749144
 20
-172.793978313
 10
509.9368501375
 20
-177.5101037145
 10
508.4551829465
 20
-182.2444545531
 10
506.8011562185
 20
-186.9842736771
 10
504.9792375194
 20
-191.7167735616
 10
502.9943316888
 20
-196.4292032251
 10
500.8517966447
 20
-201.1088543147
 10
498.5574012371
 20
-205.743112813
 10
496.1173357844
 20
-210.3194925004
 10
493.5381751948
 20
-214.8256471182
 10
490.8268736985
 20
-219.2494281638
 10
487.9907411394
 20
-223.5789198697
 10
485.0374219022
 20
-227.8024392012
 10
481.9748764729
 20
-231.9086073387
 10
478.8113656338
 20
-235.8863527175
 10
475.5554109508
 20
-239.7249581734
 10
472.2157974078
 20
-243.414065505
 10
468.8015207226
 20
-246.9437302228
 10
465.3217912987
 20
-250.3044436027
 10
461.78598681
 20
-253.4871418068
 10
458.2036390297
 20
-256.4832499895
 10
454.5844055129
 20
-259.2846864772
 10
450.9380439136
 20
-261.883895846
 10
447.2743839965
 20
-264.2738711626
 10
443.6033017889
 20
-266.4481810733
 10
439.9346940623
 20
-268.4009541174
 10
436.278451332
 20
-270.126924732
 10
432.6444295397
 20
-271.6214435166
 10
429.0424242058
 20
-272.8804860699
 10
425.4821482032
 20
-273.9006475703
 10
421.9731978424
 20
-274.6791866892
 10
418.5250324569
 20
-275.2140008736
 10
415.1469493778
 20
-275.503646877
 10
411.8480549588
 20
-275.547345319
 10
408.6372395506
 20
-275.3449829643
 10
405.5231616964
 20
-274.8971035959
 10
402.5142165217
 20
-274.2049080119
 10
399.6185120264
 20
-273.2702677119
 10
399.5480266907
 20
-273.2439582076
  0
ARC
  5
EC
330
1F
100
AcDbEntity
  8
0
  6
Continuous
 62
     1
370
    25
100
AcDbCircle
 10
526.2428238132
 20
-231.4479477676
 30
0.0
 40
145.7746688665006
100
AcDbArc
 50
134.0585222079
 51
165.9468538293
  0
LWPOLYLINE
  5
ED
330
1F
100
AcDbEntity
  8
0
  6
Continuous
 62
     1
370
    25
100
AcDbPolyline
 90
       45
 70
   128
 43
0.0
 10
511.4998120139
 20
-118.6337951964
 10
512.2154549649
 20
-120.6348409764
 10
513.2652170575
 20
-124.1212298921
 10
514.1280631453
 20
-127.7733578443
 10
514.8016330048
 20
-131.5812100758
 10
515.284077443
 20
-135.5343536227
 10
515.5740741025
 20
-139.6219525252
 10
515.6708274616
 20
-143.8328028087
 10
515.5740741025
 20
-148.1553621429
 10
515.284077443
 20
-152.5777840615
 10
514.8016330048
 20
-157.0879461003
 10
514.1280631453
 20
-161.673485538
 10
513.2652170575
 20
-166.3218343781
 10
512.2154549649
 20
-171.0202528071
 10
510.9816586583
 20
-175.7558588541
 10
509.567205154
 20
-180.515679339
 10
507.9759772302
 20
-185.2866589993
 10
506.2123318176
 20
-190.0557304494
 10
504.2811052669
 20
-194.8098141815
 10
502.1875870076
 20
-199.5358854834
 10
499.937519548
 20
-204.2209835646
 10
497.5370668644
 20
-208.8522754315
 10
494.9928091338
 20
-213.4170650132
 10
492.3117216595
 20
-217.902838787
 10
489.5011537982
 20
-222.2972992365
 10
486.5688105206
 20
-226.5883998316
 10
483.5227234357
 20
-230.7643860905
 10
480.3712455218
 20
-234.813804705
 10
477.1230116147
 20
-238.7255628526
 10
473.7869305044
 20
-242.4889327589
 10
470.3721401545
 20
-246.0936079672
 10
466.8880050679
 20
-249.5296987759
 10
463.3440715058
 20
-252.7877945919
 10
459.7500543167
 20
-255.8589593671
 10
456.1158059852
 20
-258.7347798841
 10
452.4512856797
 20
-261.4073714575
 10
448.7665381796
 20
-263.8694083502
 10
445.0716635821
 20
-266.114141261
 10
441.3767889846
 20
-268.1354197559
 10
437.6920414845
 20
-269.9277017711
 10
434.027521179
 20
-271.4860752837
 10
430.3932728474
 20
-272.8062685757
 10
426.7992556584
 20
-273.8846677211
 10
423.2553220963
 20
-274.7183105007
 10
421.7705623802
 20
-274.997242811
  0
LWPOLYLINE
  5
EE
330
1F
100
AcDbEntity
  8
0
  6
Continuous
 62
     1
370
    25
100
AcDbPolyline
 90
       39
 70
   128
 43
0.0
 10
540.8622556489
 20
-165.5237460725
 10
541.4817721752
 20
-167.0673841756
 10
542.4261618781
 20
-169.9144238001
 10
543.1860958986
 20
-172.9291859793
 10
543.7586344938
 20
-176.1000049365
 10
544.1415649543
 20
-179.4146126767
 10
544.3333963353
 20
-182.8601906977
 10
544.3333963353
 20
-186.4234034533
 10
544.1415649543
 20
-190.0904652723
 10
543.7586344938
 20
-193.8471951114
 10
543.1860958986
 20
-197.6790530601
 10
542.4261618781
 20
-201.5712163833
 10
541.4817721752
 20
-205.5086251496
 10
540.3565777605
 20
-209.476050672
 10
539.0549355645
 20
-213.4581396133
 10
537.5818821356
 20
-217.439486989
 10
535.9431125668
 20
-221.4046909181
 10
534.1449699586
 20
-225.3384088964
 10
532.1944085412
 20
-229.2254262349
 10
530.0989752345
 20
-233.0507001649
 10
527.8667780386
 20
-236.7994328394
 10
525.506451789
 20
-240.4571245621
 10
523.0271291811
 20
-244.0096178919
 10
520.4384012569
 20
-247.4431752061
 10
517.7502831614
 20
-250.7445075951
 10
514.9731759466
 20
-253.9008455814
 10
512.1178231074
 20
-256.8999763786
 10
509.1952710696
 20
-259.7303062457
 10
506.2168270424
 20
-262.3808665663
 10
503.1940142374
 20
-264.8414218307
 10
500.1385270881
 20
-267.1024346502
 10
497.0621861392
 20
-269.1551769706
 10
493.9768938417
 20
-270.9916886703
 10
490.8945862326
 20
-272.6048784595
 10
487.8271883181
 20
-273.9885009675
 10
484.7865671525
 20
-275.1371959971
 10
481.7844859872
 20
-276.0465332444
 10
478.8325602302
 20
-276.7129829703
 10
477.318086986
 20
-276.9631000745
  0
ARC
  5
EF
330
1F
100
AcDbEntity
  8
0
  6
Continuous
 62
     1
370
    25
100
AcDbCircle
 10
528.4086423694
 20
-232.6982527669
 30
0.0
 40
146.4357159210316
100
AcDbArc
 50
135.4657599993
 51
164.539613375
  0
LWPOLYLINE
  5
F0
330
1F
100
AcDbEntity
  8
0
  6
Continuous
 62
     1
370
    25
100
AcDbPolyline
 90
       45
 70
   128
 43
0.0
 10
537.4448943412
 20
-159.2810183634
 10
538.0360328676
 20
-160.0775476827
 10
539.5057777688
 20
-162.3530148988
 10
540.8044907589
 20
-164.8266883236
 10
541.9271563626
 20
-167.4889947796
 10
542.8694229181
 20
-170.3296356702
 10
543.6276499912
 20
-173.337618923
 10
544.1989031075
 20
-176.5013091804
 10
544.5809695576
 20
-179.8084677254
 10
544.7723689334
 20
-183.2463011517
 10
544.7723689334
 20
-186.8015039517
 10
544.5809695576
 20
-190.4603223935
 10
544.1989031075
 20
-194.2086054721
 10
543.6276499912
 20
-198.0318505387
 10
542.8694229181
 20
-201.915264136
 10
541.9271563626
 20
-205.8438228345
 10
540.8044907589
 20
-209.8023314062
 10
539.5057777688
 20
-213.7754669324
 10
538.0360328676
 20
-217.7478654912
 10
536.4009458796
 20
-221.7041571407
 10
534.6068441005
 20
-225.6290328357
 10
532.6606685895
 20
-229.5073128671
 10
530.5699451932
 20
-233.3239879247
 10
528.3427661064
 20
-237.0642936203
 10
525.9877450914
 20
-240.7137606741
 10
523.5139964042
 20
-244.2582696666
 10
520.9310873793
 20
-247.6841088285
 10
518.2490120882
 20
-250.9780196667
 10
515.4781478753
 20
-254.1272646409
 10
512.6292132109
 20
-257.1196545369
 10
509.7132321302
 20
-259.9436176647
 10
506.7414828664
 20
-262.5882203867
 10
503.7254649237
 20
-265.0432408794
 10
500.6768457351
 20
-267.2991816756
 10
497.6074203267
 20
-269.347305118
 10
494.5290633261
 20
-271.179691482
 10
491.453684593
 20
-272.7892524221
 10
488.3931816395
 20
-274.1697645234
 10
485.3593955074
 20
-275.3158765216
 10
482.3640631062
 20
-276.2231672361
 10
479.4187728436
 20
-276.8881225147
 10
476.5349195153
 20
-277.3081673583
 10
473.7236601822
 20
-277.481673142
 10
470.9958726827
 20
-277.4079724397
 10
469.3497642938
 20
-277.2380248677
  0
ENDSEC
  0
SECTION
  2
OBJECTS
  0
DICTIONARY
  5
C
330
0
100
AcDbDictionary
281
     1
  3
ACAD_GROUP
350
D
  3
ACAD_LAYOUT
350
1A
  3
ACAD_MLINESTYLE
350
17
  3
ACAD_PLOTSETTINGS
350
19
  3
ACAD_PLOTSTYLENAME
350
E
  3
ACAD_SCALELIST
350
47
  0
DICTIONARY
  5
D
102
{ACAD_REACTORS
330
C
102
}
330
C
100
AcDbDictionary
281
     1
  0
DICTIONARY
  5
1A
102
{ACAD_REACTORS
330
C
102
}
330
C
100
AcDbDictionary
281
     1
  3
Layout1
350
1E
  3
Layout2
350
26
  3
Model
350
22
  0
DICTIONARY
  5
17
102
{ACAD_REACTORS
330
C
102
}
330
C
100
AcDbDictionary
281
     1
  3
Standard
350
18
  0
DICTIONARY
  5
19
102
{ACAD_REACTORS
330
C
102
}
330
C
100
AcDbDictionary
281
     1
  0
ACDBDICTIONARYWDFLT
  5
E
102
{ACAD_REACTORS
330
C
102
}
330
C
100
AcDbDictionary
281
     1
  3
Normal
350
F
100
AcDbDictionaryWithDefault
340
F
  0
DICTIONARY
  5
47
102
{ACAD_REACTORS
330
C
102
}
330
C
100
AcDbDictionary
281
     1
  3
A0
350
48
  3
A1
350
49
  3
A2
350
4A
  3
A3
350
4B
  3
A4
350
4C
  3
A5
350
4D
  3
A6
350
4E
  3
A7
350
4F
  3
A8
350
50
  3
A9
350
51
  3
B0
350
52
  3
B1
350
53
  3
B2
350
54
  3
B3
350
55
  3
B4
350
56
  3
B5
350
57
  3
B6
350
58
  3
B7
350
59
  3
B8
350
5A
  3
B9
350
5B
  3
C0
350
5C
  3
C1
350
5D
  3
C2
350
5E
  3
C3
350
5F
  3
C4
350
60
  3
C5
350
61
  3
C6
350
62
  3
C7
350
63
  3
C8
350
64
  3
C9
350
65
  3
D0
350
66
  3
D1
350
67
  3
D2
350
68
  0
LAYOUT
  5
1E
102
{ACAD_REACTORS
330
1A
102
}
330
1A
100
AcDbPlotSettings
  1

  2
none_device
  4

  6

 40
0.0
 41
0.0
 42
0.0
 43
0.0
 44
0.0
 45
0.0
 46
0.0
 47
0.0
 48
0.0
 49
0.0
140
0.0
141
0.0
142
1.0
143
1.0
 70
   688
 72
     1
 73
     0
 74
     5
  7

 75
    16
147
1.0
148
0.0
149
0.0
100
AcDbLayout
  1
Layout1
 70
     1
 71
     1
 10
0.0
 20
0.0
 11
420.0
 21
297.0
 12
0.0
 22
0.0
 32
0.0
 14
1.0000000000E+20
 24
1.0000000000E+20
 34
1.0000000000E+20
 15
-1.0000000000E+20
 25
-1.0000000000E+20
 35
-1.0000000000E+20
146
0.0
 13
0.0
 23
0.0
 33
0.0
 16
1.0
 26
0.0
 36
0.0
 17
0.0
 27
1.0
 37
0.0
 76
     0
330
1B
  0
LAYOUT
  5
26
102
{ACAD_REACTORS
330
1A
102
}
330
1A
100
AcDbPlotSettings
  1

  2
none_device
  4

  6

 40
0.0
 41
0.0
 42
0.0
 43
0.0
 44
0.0
 45
0.0
 46
0.0
 47
0.0
 48
0.0
 49
0.0
140
0.0
141
0.0
142
1.0
143
1.0
 70
   688
 72
     1
 73
     0
 74
     5
  7

 75
    16
147
1.0
148
0.0
149
0.0
100
AcDbLayout
  1
Layout2
 70
     1
 71
     2
 10
0.0
 20
0.0
 11
0.0
 21
0.0
 12
0.0
 22
0.0
 32
0.0
 14
0.0
 24
0.0
 34
0.0
 15
0.0
 25
0.0
 35
0.0
146
0.0
 13
0.0
 23
0.0
 33
0.0
 16
1.0
 26
0.0
 36
0.0
 17
0.0
 27
1.0
 37
0.0
 76
     0
330
23
  0
LAYOUT
  5
22
102
{ACAD_REACTORS
330
1A
102
}
330
1A
100
AcDbPlotSettings
  1

  2
none_device
  4
Letter_(8.50_x_11.00_Inches)
  6

 40
6.35
 41
6.35
 42
6.35000508
 43
6.35000508
 44
215.9
 45
279.4
 46
0.0
 47
0.0
 48
0.0
 49
0.0
140
0.0
141
0.0
142
1.0
143
1.0
 70
  1712
 72
     1
 73
     0
 74
     0
  7

 75
     0
147
1.0
148
0.0
149
0.0
100
AcDbLayout
  1
Model
 70
     1
 71
     0
 10
0.0
 20
0.0
 11
279.4
 21
215.9
 12
0.0
 22
0.0
 32
0.0
 14
0.0
 24
0.0
 34
0.0
 15
279.4
 25
215.9
 35
0.0
146
0.0
 13
0.0
 23
0.0
 33
0.0
 16
1.0
 26
0.0
 36
0.0
 17
0.0
 27
1.0
 37
0.0
 76
     0
330
1F
331
29
  0
MLINESTYLE
  5
18
102
{ACAD_REACTORS
330
17
102
}
330
17
100
AcDbMlineStyle
  2
Standard
 70
     0
  3

 62
   256
 51
90.0
 52
90.0
 71
     2
 49
0.5
 62
   256
  6
BYLAYER
 49
-0.5
 62
   256
  6
BYLAYER
  0
ACDBPLACEHOLDER
  5
F
102
{ACAD_REACTORS
330
E
102
}
330
E
  0
SCALE
  5
48
102
{ACAD_REACTORS
330
47
102
}
330
47
100
AcDbScale
 70
     0
300
1:1
140
1.0
141
1.0
290
     1
  0
SCALE
  5
49
102
{ACAD_REACTORS
330
47
102
}
330
47
100
AcDbScale
 70
     0
300
1:2
140
1.0
141
2.0
290
     0
  0
SCALE
  5
4A
102
{ACAD_REACTORS
330
47
102
}
330
47
100
AcDbScale
 70
     0
300
1:4
140
1.0
141
4.0
290
     0
  0
SCALE
  5
4B
102
{ACAD_REACTORS
330
47
102
}
330
47
100
AcDbScale
 70
     0
300
1:5
140
1.0
141
5.0
290
     0
  0
SCALE
  5
4C
102
{ACAD_REACTORS
330
47
102
}
330
47
100
AcDbScale
 70
     0
300
1:8
140
1.0
141
8.0
290
     0
  0
SCALE
  5
4D
102
{ACAD_REACTORS
330
47
102
}
330
47
100
AcDbScale
 70
     0
300
1:10
140
1.0
141
10.0
290
     0
  0
SCALE
  5
4E
102
{ACAD_REACTORS
330
47
102
}
330
47
100
AcDbScale
 70
     0
300
1:16
140
1.0
141
16.0
290
     0
  0
SCALE
  5
4F
102
{ACAD_REACTORS
330
47
102
}
330
47
100
AcDbScale
 70
     0
300
1:20
140
1.0
141
20.0
290
     0
  0
SCALE
  5
50
102
{ACAD_REACTORS
330
47
102
}
330
47
100
AcDbScale
 70
     0
300
1:30
140
1.0
141
30.0
290
     0
  0
SCALE
  5
51
102
{ACAD_REACTORS
330
47
102
}
330
47
100
AcDbScale
 70
     0
300
1:40
140
1.0
141
40.0
290
     0
  0
SCALE
  5
52
102
{ACAD_REACTORS
330
47
102
}
330
47
100
AcDbScale
 70
     0
300
1:50
140
1.0
141
50.0
290
     0
  0
SCALE
  5
53
102
{ACAD_REACTORS
330
47
102
}
330
47
100
AcDbScale
 70
     0
300
1:100
140
1.0
141
100.0
290
     0
  0
SCALE
  5
54
102
{ACAD_REACTORS
330
47
102
}
330
47
100
AcDbScale
 70
     0
300
2:1
140
2.0
141
1.0
290
     0
  0
SCALE
  5
55
102
{ACAD_REACTORS
330
47
102
}
330
47
100
AcDbScale
 70
     0
300
4:1
140
4.0
141
1.0
290
     0
  0
SCALE
  5
56
102
{ACAD_REACTORS
330
47
102
}
330
47
100
AcDbScale
 70
     0
300
8:1
140
8.0
141
1.0
290
     0
  0
SCALE
  5
57
102
{ACAD_REACTORS
330
47
102
}
330
47
100
AcDbScale
 70
     0
300
10:1
140
10.0
141
1.0
290
     0
  0
SCALE
  5
58
102
{ACAD_REACTORS
330
47
102
}
330
47
100
AcDbScale
 70
     0
300
100:1
140
100.0
141
1.0
290
     0
  0
SCALE
  5
59
102
{ACAD_REACTORS
330
47
102
}
330
47
100
AcDbScale
 70
     0
300
1/128" = 1'-0"
140
0.0078125
141
12.0
290
     0
  0
SCALE
  5
5A
102
{ACAD_REACTORS
330
47
102
}
330
47
100
AcDbScale
 70
     0
300
1/64" = 1'-0"
140
0.015625
141
12.0
290
     0
  0
SCALE
  5
5B
102
{ACAD_REACTORS
330
47
102
}
330
47
100
AcDbScale
 70
     0
300
1/32" = 1'-0"
140
0.03125
141
12.0
290
     0
  0
SCALE
  5
5C
102
{ACAD_REACTORS
330
47
102
}
330
47
100
AcDbScale
 70
     0
300
1/16" = 1'-0"
140
0.0625
141
12.0
290
     0
  0
SCALE
  5
5D
102
{ACAD_REACTORS
330
47
102
}
330
47
100
AcDbScale
 70
     0
300
3/32" = 1'-0"
140
0.09375
141
12.0
290
     0
  0
SCALE
  5
5E
102
{ACAD_REACTORS
330
47
102
}
330
47
100
AcDbScale
 70
     0
300
1/8" = 1'-0"
140
0.125
141
12.0
290
     0
  0
SCALE
  5
5F
102
{ACAD_REACTORS
330
47
102
}
330
47
100
AcDbScale
 70
     0
300
3/16" = 1'-0"
140
0.1875
141
12.0
290
     0
  0
SCALE
  5
60
102
{ACAD_REACTORS
330
47
102
}
330
47
100
AcDbScale
 70
     0
300
1/4" = 1'-0"
140
0.25
141
12.0
290
     0
  0
SCALE
  5
61
102
{ACAD_REACTORS
330
47
102
}
330
47
100
AcDbScale
 70
     0
300
3/8" = 1'-0"
140
0.375
141
12.0
290
     0
  0
SCALE
  5
62
102
{ACAD_REACTORS
330
47
102
}
330
47
100
AcDbScale
 70
     0
300
1/2" = 1'-0"
140
0.5
141
12.0
290
     0
  0
SCALE
  5
63
102
{ACAD_REACTORS
330
47
102
}
330
47
100
AcDbScale
 70
     0
300
3/4" = 1'-0"
140
0.75
141
12.0
290
     0
  0
SCALE
  5
64
102
{ACAD_REACTORS
330
47
102
}
330
47
100
AcDbScale
 70
     0
300
1" = 1'-0"
140
1.0
141
12.0
290
     0
  0
SCALE
  5
65
102
{ACAD_REACTORS
330
47
102
}
330
47
100
AcDbScale
 70
     0
300
1-1/2" = 1'-0"
140
1.5
141
12.0
290
     0
  0
SCALE
  5
66
102
{ACAD_REACTORS
330
47
102
}
330
47
100
AcDbScale
 70
     0
300
3" = 1'-0"
140
3.0
141
12.0
290
     0
  0
SCALE
  5
67
102
{ACAD_REACTORS
330
47
102
}
330
47
100
AcDbScale
 70
     0
300
6" = 1'-0"
140
6.0
141
12.0
290
     0
  0
SCALE
  5
68
102
{ACAD_REACTORS
330
47
102
}
330
47
100
AcDbScale
 70
     0
300
1'-0" = 1'-0"
140
12.0
141
12.0
290
     0
  0
ENDSEC
  0
EOF
